  0
SECTION
  2
HEADER
  9
$ACADVER
  1
AC1015
  9
$ACADMAINTVER
 70
     6
  9
$DWGCODEPAGE
  3
ANSI_1252
  9
$INSBASE
 10
0.0
 20
0.0
 30
0.0
  9
$EXTMIN
 10
-0.939693
 20
-0.984808
 30
0.0
  9
$EXTMAX
 10
13.0
 20
12.984808
 30
0.0
  9
$LIMMIN
 10
0.0
 20
0.0
  9
$LIMMAX
 10
0.0
 20
0.0
  9
$ORTHOMODE
 70
     0
  9
$REGENMODE
 70
     1
  9
$FILLMODE
 70
     1
  9
$QTEXTMODE
 70
     0
  9
$MIRRTEXT
 70
     1
  9
$LTSCALE
 40
1.0
  9
$ATTMODE
 70
     1
  9
$TEXTSIZE
 40
0.2
  9
$TRACEWID
 40
0.05
  9
$TEXTSTYLE
  7
Standard
  9
$CLAYER
  8
0
  9
$CELTYPE
  6
Continuous
  9
$CECOLOR
 62
   256
  9
$CELTSCALE
 40
1.0
  9
$DISPSILH
 70
     0
  9
$DIMSCALE
 40
1.0
  9
$DIMASZ
 40
0.18
  9
$DIMEXO
 40
0.0625
  9
$DIMDLI
 40
0.38
  9
$DIMRND
 40
0.0
  9
$DIMDLE
 40
0.0
  9
$DIMEXE
 40
0.18
  9
$DIMTP
 40
0.0
  9
$DIMTM
 40
0.0
  9
$DIMTXT
 40
0.18
  9
$DIMCEN
 40
0.09
  9
$DIMTSZ
 40
0.0
  9
$DIMTOL
 70
     0
  9
$DIMLIM
 70
     0
  9
$DIMTIH
 70
     1
  9
$DIMTOH
 70
     1
  9
$DIMSE1
 70
     0
  9
$DIMSE2
 70
     0
  9
$DIMTAD
 70
     0
  9
$DIMZIN
 70
     0
  9
$DIMBLK
  1

  9
$DIMASO
 70
     1
  9
$DIMSHO
 70
     1
  9
$DIMPOST
  1

  9
$DIMAPOST
  1

  9
$DIMALT
 70
     0
  9
$DIMALTD
 70
     2
  9
$DIMALTF
 40
25.4
  9
$DIMLFAC
 40
1.0
  9
$DIMTOFL
 70
     0
  9
$DIMTVP
 40
0.0
  9
$DIMTIX
 70
     0
  9
$DIMSOXD
 70
     0
  9
$DIMSAH
 70
     0
  9
$DIMBLK1
  1

  9
$DIMBLK2
  1

  9
$DIMSTYLE
  2
Standard
  9
$DIMCLRD
 70
     0
  9
$DIMCLRE
 70
     0
  9
$DIMCLRT
 70
     0
  9
$DIMTFAC
 40
1.0
  9
$DIMGAP
 40
0.09
  9
$DIMJUST
 70
     0
  9
$DIMSD1
 70
     0
  9
$DIMSD2
 70
     0
  9
$DIMTOLJ
 70
     1
  9
$DIMTZIN
 70
     0
  9
$DIMALTZ
 70
     0
  9
$DIMALTTZ
 70
     0
  9
$DIMUPT
 70
     0
  9
$DIMDEC
 70
     4
  9
$DIMTDEC
 70
     4
  9
$DIMALTU
 70
     2
  9
$DIMALTTD
 70
     2
  9
$DIMTXSTY
  7
Standard
  9
$DIMAUNIT
 70
     0
  9
$DIMADEC
 70
     0
  9
$DIMALTRND
 40
0.0
  9
$DIMAZIN
 70
     0
  9
$DIMDSEP
 70
    46
  9
$DIMATFIT
 70
     3
  9
$DIMFRAC
 70
     0
  9
$DIMLDRBLK
  1

  9
$DIMLUNIT
 70
     2
  9
$DIMLWD
 70
    -2
  9
$DIMLWE
 70
    -2
  9
$DIMTMOVE
 70
     0
  9
$LUNITS
 70
     2
  9
$LUPREC
 70
     4
  9
$SKETCHINC
 40
0.1
  9
$FILLETRAD
 40
0.0
  9
$AUNITS
 70
     0
  9
$AUPREC
 70
     0
  9
$MENU
  1
acad
  9
$ELEVATION
 40
0.0
  9
$PELEVATION
 40
0.0
  9
$THICKNESS
 40
0.0
  9
$LIMCHECK
 70
     0
  9
$CHAMFERA
 40
0.0
  9
$CHAMFERB
 40
0.0
  9
$CHAMFERC
 40
0.0
  9
$CHAMFERD
 40
0.0
  9
$SKPOLY
 70
     0
  9
$TDCREATE
 40
2455681.686550926
  9
$TDUCREATE
 40
0.000000000
  9
$TDUPDATE
 40
2455681.686550926
  9
$TDUUPDATE
 40
0.000000000
  9
$TDINDWG
 40
0.0000000000
  9
$TDUSRTIMER
 40
0.0000000000
  9
$USRTIMER
 70
     1
  9
$ANGBASE
 50
0.0
  9
$ANGDIR
 70
     0
  9
$PDMODE
 70
     0
  9
$PDSIZE
 40
0.0
  9
$PLINEWID
 40
0.0
  9
$SPLFRAME
 70
     0
  9
$SPLINETYPE
 70
     6
  9
$SPLINESEGS
 70
     8
  9
$HANDSEED
  5
5B
  9
$SURFTAB1
 70
     6
  9
$SURFTAB2
 70
     6
  9
$SURFTYPE
 70
     6
  9
$SURFU
 70
     6
  9
$SURFV
 70
     6
  9
$UCSBASE
  2

  9
$UCSNAME
  2

  9
$UCSORG
 10
0.0
 20
0.0
 30
0.0
  9
$UCSXDIR
 10
1.0
 20
0.0
 30
0.0
  9
$UCSYDIR
 10
0.0
 20
1.0
 30
0.0
  9
$UCSORTHOREF
  2

  9
$UCSORTHOVIEW
 70
     0
  9
$UCSORGTOP
 10
0.0
 20
0.0
 30
0.0
  9
$UCSORGBOTTOM
 10
0.0
 20
0.0
 30
0.0
  9
$UCSORGLEFT
 10
0.0
 20
0.0
 30
0.0
  9
$UCSORGRIGHT
 10
0.0
 20
0.0
 30
0.0
  9
$UCSORGFRONT
 10
0.0
 20
0.0
 30
0.0
  9
$UCSORGBACK
 10
0.0
 20
0.0
 30
0.0
  9
$PUCSBASE
  2

  9
$PUCSNAME
  2

  9
$PUCSORG
 10
0.0
 20
0.0
 30
0.0
  9
$PUCSXDIR
 10
1.0
 20
0.0
 30
0.0
  9
$PUCSYDIR
 10
0.0
 20
1.0
 30
0.0
  9
$PUCSORTHOREF
  2

  9
$PUCSORTHOVIEW
 70
     0
  9
$PUCSORGTOP
 10
0.0
 20
0.0
 30
0.0
  9
$PUCSORGBOTTOM
 10
0.0
 20
0.0
 30
0.0
  9
$PUCSORGLEFT
 10
0.0
 20
0.0
 30
0.0
  9
$PUCSORGRIGHT
 10
0.0
 20
0.0
 30
0.0
  9
$PUCSORGFRONT
 10
0.0
 20
0.0
 30
0.0
  9
$PUCSORGBACK
 10
0.0
 20
0.0
 30
0.0
  9
$USERI1
 70
     0
  9
$USERI2
 70
     0
  9
$USERI3
 70
     0
  9
$USERI4
 70
     0
  9
$USERI5
 70
     0
  9
$USERR1
 40
0.0
  9
$USERR2
 40
0.0
  9
$USERR3
 40
0.0
  9
$USERR4
 40
0.0
  9
$USERR5
 40
0.0
  9
$WORLDVIEW
 70
     1
  9
$SHADEDGE
 70
     3
  9
$SHADEDIF
 70
    70
  9
$TILEMODE
 70
     1
  9
$MAXACTVP
 70
    16
  9
$PINSBASE
 10
0.0
 20
0.0
 30
0.0
  9
$PLIMCHECK
 70
     0
  9
$PEXTMIN
 10
1.000000E+20
 20
1.000000E+20
 30
1.000000E+20
  9
$PEXTMAX
 10
-1.000000E+20
 20
-1.000000E+20
 30
-1.000000E+20
  9
$PLIMMIN
 10
0.0
 20
0.0
  9
$PLIMMAX
 10
12.0
 20
9.0
  9
$UNITMODE
 70
     0
  9
$VISRETAIN
 70
     0
  9
$PLINEGEN
 70
     1
  9
$PSLTSCALE
 70
     0
  9
$TREEDEPTH
 70
  3020
  9
$CMLSTYLE
  2
Standard
  9
$CMLJUST
 70
     0
  9
$CMLSCALE
 40
1.0
  9
$PROXYGRAPHICS
 70
     0
  9
$MEASUREMENT
 70
     0
  9
$CELWEIGHT
370
     0
  9
$ENDCAPS
280
     0
  9
$JOINSTYLE
280
     0
  9
$LWDISPLAY
290
     0
  9
$INSUNITS
 70
     0
  9
$HYPERLINKBASE
  1

  9
$STYLESHEET
  1

  9
$XEDIT
290
     1
  9
$CEPSNTYPE
380
     0
  9
$PSTYLEMODE
290
     1
  9
$FINGERPRINTGUID
  2

  9
$VERSIONGUID
  2

  9
$EXTNAMES
290
     1
  9
$PSVPSCALE
 40
0.0
  0
ENDSEC
  0
SECTION
  2
CLASSES
  0
CLASS
  1
LWPOLYLINE
  2
AcDbPolyline
  3
AutoCAD 2000
 90
        0
280
     0
281
     1
  0
CLASS
  1
IMAGE
  2
AcDbRasterImage
  3
ISM
 90
      127
280
     0
281
     1
  0
CLASS
  1
OLE2FRAME
  2
AcDbOle2Frame
  3
AutoCAD 2000
 90
        0
280
     0
281
     1
  0
CLASS
  1
HATCH
  2
AcDbHatch
  3
AutoCAD 2000
 90
        0
280
     0
281
     1
  0
CLASS
  1
DICTIONARYVAR
  2
AcDbDictionaryVar
  3
AutoCAD 2000
 90
        0
280
     0
281
     0
  0
CLASS
  1
RASTERVARIABLES
  2
AcDbRasterVariables
  3
ISM
 90
        0
280
     0
281
     0
  0
CLASS
  1
IMAGEDEF
  2
AcDbRasterImageDef
  3
ISM
 90
        0
280
     0
281
     0
  0
CLASS
  1
IMAGEDEF_REACTOR
  2
AcDbRasterImageDefReactor
  3
ISM
 90
        1
280
     0
281
     0
  0
CLASS
  1
IDBUFFER
  2
AcDbIdBuffer
  3
AutoCAD 2000
 90
        0
280
     0
281
     0
  0
CLASS
  1
SPATIAL_FILTER
  2
AcDbSpatialFilter
  3
AutoCAD 2000
 90
        0
280
     0
281
     0
  0
CLASS
  1
XRECORD
  2
AcDbXrecord
  3
AutoCAD 2000
 90
        0
280
     0
281
     0
  0
CLASS
  1
SORTENTSTABLE
  2
AcDbSortentsTable
  3
AutoCAD 2000
 90
        0
280
     0
281
     0
  0
CLASS
  1
LAYER_INDEX
  2
AcDbLayerIndex
  3
AutoCAD 2000
 90
        0
280
     0
281
     0
  0
CLASS
  1
SPATIAL_INDEX
  2
AcDbSpatialIndex
  3
AutoCAD 2000
 90
        0
280
     0
281
     0
  0
CLASS
  1
OBJECT_PTR
  2
CAseDLPNTableRecord
  3
"ASE-LPNTableRecord"
 90
        1
280
     0
281
     0
  0
CLASS
  1
LAYOUT
  2
AcDbLayout
  3
AutoCAD 2000
 90
        0
280
     0
281
     0
  0
CLASS
  1
PLOTSETTINGS
  2
AcDbPlotSettings
  3
AutoCAD 2000
 90
        0
280
     0
281
     0
  0
CLASS
  1
ACDBDICTIONARYWDFLT
  2
AcDbDictionaryWithDefault
  3
AutoCAD 2000
 90
        0
280
     0
281
     0
  0
CLASS
  1
ACDBPLACEHOLDER
  2
AcDbPlaceHolder
  3
AutoCAD 2000
 90
        0
280
     0
281
     0
  0
CLASS
  1
VBA_PROJECT
  2
AcDbVbaProject
  3
acadvba
 90
        0
280
     0
281
     0
  0
CLASS
  1
WIPEOUT
  2
AcDbWipeout
  3
WipeOut|AutoCAD Express Tool|expresstools@autodesk.com
 90
      127
280
     0
281
     1
  0
CLASS
  1
WIPEOUTVARIABLES
  2
AcDbWipeoutVariables
  3
WipeOut|AutoCAD Express Tool|expresstools@autodesk.com
 90
        0
280
     0
281
     0
  0
CLASS
  1
RTEXT
  2
RText
  3
RText|AutoCAD Express Tool|expresstools@autodesk.com
 90
        0
280
     0
281
     1
  0
CLASS
  1
ARCALIGNEDTEXT
  2
AcDbArcAlignedText
  3
ATEXT|AutoCAD Express Tool|expresstools@autodesk.com
 90
        0
280
     0
281
     1
  0
ENDSEC
  0
SECTION
  2
TABLES
  0
TABLE
  2
VPORT
  5
7
100
AcDbSymbolTable
 70
     1
  0
VPORT
  5
15
100
AcDbSymbolTableRecord
100
AcDbViewportTableRecord
  2
*ACTIVE
 70
     0
 10
0.0
 20
0.0
 11
1.0
 21
1.0
 12
6.591288
 22
4.579184
 13
0.0
 23
0.0
 14
1.0
 24
1.0
 15
0.0
 25
0.0
 16
0.0
 26
0.0
 36
1.0
 17
0.0
 27
0.0
 37
0.0
 40
9.158369
 41
0.688564
 42
50.0
 43
0.0
 44
0.0
 50
0.0
 51
0.0
 71
     0
 72
   100
 73
     1
 74
     1
 75
     0
 76
     0
 77
     0
 78
     0
281
     0
 65
     0
110
0.0
120
0.0
130
0.0
111
1.0
121
0.0
131
0.0
112
0.0
122
1.0
132
0.0
345
0
346
0
 79
     0
146
0.0
  0
ENDTAB
  0
TABLE
  2
LTYPE
  5
4
100
AcDbSymbolTable
 70
     6
  0
LTYPE
  5
11
100
AcDbSymbolTableRecord
100
AcDbLinetypeTableRecord
  2
ByBlock
 70
    64
  3

 72
    65
 73
     0
 40
0.0
  0
LTYPE
  5
12
100
AcDbSymbolTableRecord
100
AcDbLinetypeTableRecord
  2
ByLayer
 70
    64
  3

 72
    65
 73
     0
 40
0.0
  0
LTYPE
  5
13
100
AcDbSymbolTableRecord
100
AcDbLinetypeTableRecord
  2
Continuous
 70
    64
  3
Solid line
 72
    65
 73
     0
 40
0.0
  0
LTYPE
  5
24
100
AcDbSymbolTableRecord
100
AcDbLinetypeTableRecord
  2
solid
 70
    64
  3

 72
    65
 73
     0
 40
0.0
  0
LTYPE
  5
25
100
AcDbSymbolTableRecord
100
AcDbLinetypeTableRecord
  2
dashed
 70
    64
  3

 72
    65
 73
     0
 40
0.0
  0
LTYPE
  5
26
100
AcDbSymbolTableRecord
100
AcDbLinetypeTableRecord
  2
center
 70
    64
  3

 72
    65
 73
     0
 40
0.0
  0
ENDTAB
  0
TABLE
  2
LAYER
  5
2
100
AcDbSymbolTable
 70
     2
  0
LAYER
  5
14
100
AcDbSymbolTableRecord
100
AcDbLayerTableRecord
  2
0
 70
     0
 62
     7
  6
Continuous
290
     1
370
    -3
390
1D
  0
LAYER
  5
27
100
AcDbSymbolTableRecord
100
AcDbLayerTableRecord
  2
1
 70
     0
 62
     1
  6
solid
290
     1
370
    -3
390
1D
  0
ENDTAB
  0
TABLE
  2
STYLE
  5
3
100
AcDbSymbolTable
 70
     1
  0
STYLE
  5
17
100
AcDbSymbolTableRecord
100
AcDbTextStyleTableRecord
  2
Standard
 70
     0
 40
0.0
 41
1.0
 50
0.0
 71
     0
 42
0.0
  3
txt
  4

  0
ENDTAB
  0
TABLE
  2
VIEW
  5
5
100
AcDbSymbolTable
 70
     0
  0
ENDTAB
  0
TABLE
  2
UCS
  5
6
100
AcDbSymbolTable
 70
     0
  0
ENDTAB
  0
TABLE
  2
APPID
  5
8
100
AcDbSymbolTable
 70
     1
  0
APPID
  5
16
100
AcDbSymbolTableRecord
100
AcDbRegAppTableRecord
  2
ACAD
 70
     0
  0
ENDTAB
  0
TABLE
  2
DIMSTYLE
  5
9
100
AcDbSymbolTable
 70
     1
100
AcDbDimStyleTable
 71
     0
  0
DIMSTYLE
105
18
100
AcDbSymbolTableRecord
100
AcDbDimStyleTableRecord
  2
Standard
 70
     0
  3

  4

 40
1.0
 41
0.18
 42
0.0625
 43
0.38
 44
0.18
 45
0.0
 46
0.0
 47
0.0
 48
0.0
 71
     0
 72
     0
 73
     1
 74
     1
 75
     0
 76
     0
 77
     0
 78
     0
 79
     0
140
0.18
141
0.09
142
0.0
143
25.4
144
1.0
145
0.0
146
1.0
147
0.09
148
0.0
170
     0
171
     2
172
     0
173
     0
174
     0
175
     0
176
     0
177
     0
178
     0
179
     0
271
     4
272
     4
273
     2
274
     2
275
     0
276
     0
277
     2
278
    46
279
     0
280
     0
281
     0
282
     0
283
     1
284
     0
285
     0
286
     0
288
     0
289
     3
340
17
341
0
342
0
343
0
344
0
371
    -2
372
    -2
  0
ENDTAB
  0
TABLE
  2
BLOCK_RECORD
  5
1
100
AcDbSymbolTable
 70
     0
  0
BLOCK_RECORD
  5
A
100
AcDbSymbolTableRecord
100
AcDbBlockTableRecord
  2
*MODEL_SPACE
340
20
  0
BLOCK_RECORD
  5
B
100
AcDbSymbolTableRecord
100
AcDbBlockTableRecord
  2
*PAPER_SPACE
340
21
  0
ENDTAB
  0
ENDSEC
  0
SECTION
  2
BLOCKS
  0
BLOCK
  5
D
100
AcDbEntity
  8
0
390
0
100
AcDbBlockBegin
  2
*MODEL_SPACE
 70
     0
 10
0.0
 20
0.0
 30
0.0
  3
*MODEL_SPACE
  1

  0
ENDBLK
  5
E
100
AcDbEntity
  8
0
390
0
100
AcDbBlockEnd
  0
BLOCK
  5
F
100
AcDbEntity
 67
     1
  8
0
390
0
100
AcDbBlockBegin
  2
*PAPER_SPACE
 70
     0
 10
0.0
 20
0.0
 30
0.0
  3
*PAPER_SPACE
  1

  0
ENDBLK
  5
10
100
AcDbEntity
 67
     1
  8
0
390
0
100
AcDbBlockEnd
  0
ENDSEC
  0
SECTION
  2
ENTITIES
  0
CIRCLE
  5
28
100
AcDbEntity
  8
1
390
0
  6
solid
 62
     3
100
AcDbCircle
 10
-1.709
 20
0.2655
 30
0.0
 40
0.0935
210
0.0
220
0.0
230
-1.0
  0
CIRCLE
  5
29
100
AcDbEntity
  8
1
390
0
  6
solid
 62
     3
100
AcDbCircle
 10
-3.834
 20
0.2655
 30
0.0
 40
0.0935
210
0.0
220
0.0
230
-1.0
  0
CIRCLE
  5
2A
100
AcDbEntity
  8
1
390
0
  6
solid
 62
     3
100
AcDbCircle
 10
-2.8
 20
0.2655
 30
0.0
 40
0.0625
210
0.0
220
0.0
230
-1.0
  0
ARC
  5
2B
100
AcDbEntity
  8
1
390
0
  6
solid
 62
     3
100
AcDbCircle
 10
-1.709
 20
-8.4845
 30
0.0
 40
9.25
210
0.0
220
0.0
230
-1.0
100
AcDbArc
 50
79.69645
 51
100.30355
  0
ARC
  5
2C
100
AcDbEntity
  8
1
390
0
  6
solid
 62
     3
100
AcDbCircle
 10
0.689938
 20
0.2655
 30
0.0
 40
0.101062
210
0.0
220
0.0
230
-1.0
100
AcDbArc
 50
292.298368
 51
419.852384
  0
ARC
  5
2D
100
AcDbEntity
  8
1
390
0
  6
solid
 62
     3
100
AcDbCircle
 10
-4.107938
 20
0.2655
 30
0.0
 40
0.101062
210
0.0
220
0.0
230
-1.0
100
AcDbArc
 50
116.943113
 51
247.701632
  0
ARC
  5
2E
100
AcDbEntity
  8
1
390
0
  6
solid
 62
     3
100
AcDbCircle
 10
-0.591105
 20
2.866288
 30
0.0
 40
3.0
210
0.0
220
0.0
230
-1.0
100
AcDbArc
 50
280.303549
 51
296.090885
  0
ARC
  5
2F
100
AcDbEntity
  8
1
390
0
  6
solid
 62
     3
100
AcDbCircle
 10
-0.591105
 20
-2.335288
 30
0.0
 40
3.0
210
0.0
220
0.0
230
-1.0
100
AcDbArc
 50
63.644901
 51
79.69645
  0
ARC
  5
30
100
AcDbEntity
  8
1
390
0
  6
solid
 62
     3
100
AcDbCircle
 10
-2.826895
 20
-2.335288
 30
0.0
 40
3.0
210
0.0
220
0.0
230
-1.0
100
AcDbArc
 50
100.30355
 51
116.355099
  0
ARC
  5
31
100
AcDbEntity
  8
1
390
0
  6
solid
 62
     3
100
AcDbCircle
 10
-2.826895
 20
2.866288
 30
0.0
 40
3.0
210
0.0
220
0.0
230
-1.0
100
AcDbArc
 50
243.909115
 51
259.69645
  0
ARC
  5
32
100
AcDbEntity
  8
1
390
0
  6
solid
 62
     3
100
AcDbCircle
 10
-1.709
 20
9.0155
 30
0.0
 40
9.25
210
0.0
220
0.0
230
-1.0
100
AcDbArc
 50
259.69645
 51
280.30355
  0
CIRCLE
  5
33
100
AcDbEntity
  8
1
390
0
  6
solid
 62
     3
100
AcDbCircle
 10
0.877
 20
0.2615
 30
0.0
 40
0.0935
210
0.0
220
0.0
230
1.0
  0
CIRCLE
  5
34
100
AcDbEntity
  8
1
390
0
  6
solid
 62
     3
100
AcDbCircle
 10
-0.503
 20
0.2615
 30
0.0
 40
0.0935
210
0.0
220
0.0
230
1.0
  0
CIRCLE
  5
35
100
AcDbEntity
  8
1
390
0
  6
solid
 62
     3
100
AcDbCircle
 10
1.041
 20
0.0875
 30
0.0
 40
0.056
210
0.0
220
0.0
230
1.0
  0
CIRCLE
  5
36
100
AcDbEntity
  8
1
390
0
  6
solid
 62
     3
100
AcDbCircle
 10
1.041
 20
0.4355
 30
0.0
 40
0.056
210
0.0
220
0.0
230
1.0
  0
CIRCLE
  5
37
100
AcDbEntity
  8
1
390
0
  6
solid
 62
     3
100
AcDbCircle
 10
-0.028
 20
0.2615
 30
0.0
 40
0.056
210
0.0
220
0.0
230
1.0
  0
CIRCLE
  5
38
100
AcDbEntity
  8
1
390
0
  6
solid
 62
     3
100
AcDbCircle
 10
0.599
 20
0.2615
 30
0.0
 40
0.056
210
0.0
220
0.0
230
1.0
  0
CIRCLE
  5
39
100
AcDbEntity
  8
1
390
0
  6
solid
 62
     3
100
AcDbCircle
 10
0.599
 20
0.2615
 30
0.0
 40
0.1125
210
0.0
220
0.0
230
1.0
  0
CIRCLE
  5
3A
100
AcDbEntity
  8
1
390
0
  6
dashed
 62
     3
100
AcDbCircle
 10
1.041
 20
0.4355
 30
0.0
 40
0.1125
210
0.0
220
0.0
230
1.0
  0
CIRCLE
  5
3B
100
AcDbEntity
  8
1
390
0
  6
dashed
 62
     3
100
AcDbCircle
 10
1.041
 20
0.0875
 30
0.0
 40
0.1125
210
0.0
220
0.0
230
1.0
  0
CIRCLE
  5
3C
100
AcDbEntity
  8
1
390
0
  6
dashed
 62
     3
100
AcDbCircle
 10
-0.028
 20
0.2615
 30
0.0
 40
0.1125
210
0.0
220
0.0
230
1.0
  0
CIRCLE
  5
3D
100
AcDbEntity
  8
1
390
0
  6
solid
 62
     3
100
AcDbCircle
 10
2.8
 20
0.2655
 30
0.0
 40
0.1125
210
0.0
220
0.0
230
1.0
  0
ARC
  5
3E
100
AcDbEntity
  8
1
390
0
  6
dashed
 62
     3
100
AcDbCircle
 10
-1.709
 20
-6.5595
 30
0.0
 40
7.215
210
0.0
220
0.0
230
-1.0
100
AcDbArc
 50
79.69645
 51
100.30355
  0
ARC
  5
3F
100
AcDbEntity
  8
1
390
0
  6
dashed
 62
     3
100
AcDbCircle
 10
0.162171
 20
0.2655
 30
0.0
 40
0.078829
210
0.0
220
0.0
230
-1.0
100
AcDbArc
 50
292.298368
 51
419.852384
  0
ARC
  5
40
100
AcDbEntity
  8
1
390
0
  6
dashed
 62
     3
100
AcDbCircle
 10
-3.580171
 20
0.2655
 30
0.0
 40
0.078829
210
0.0
220
0.0
230
-1.0
100
AcDbArc
 50
116.943113
 51
247.701632
  0
ARC
  5
41
100
AcDbEntity
  8
1
390
0
  6
dashed
 62
     3
100
AcDbCircle
 10
-0.837042
 20
2.294114
 30
0.0
 40
2.34
210
0.0
220
0.0
230
-1.0
100
AcDbArc
 50
280.303549
 51
296.090885
  0
ARC
  5
42
100
AcDbEntity
  8
1
390
0
  6
dashed
 62
     3
100
AcDbCircle
 10
-0.837042
 20
-1.763114
 30
0.0
 40
2.34
210
0.0
220
0.0
230
-1.0
100
AcDbArc
 50
63.644901
 51
79.69645
  0
ARC
  5
43
100
AcDbEntity
  8
1
390
0
  6
dashed
 62
     3
100
AcDbCircle
 10
-2.580958
 20
-1.763114
 30
0.0
 40
2.34
210
0.0
220
0.0
230
-1.0
100
AcDbArc
 50
100.30355
 51
116.355099
  0
ARC
  5
44
100
AcDbEntity
  8
1
390
0
  6
dashed
 62
     3
100
AcDbCircle
 10
-2.580958
 20
2.294114
 30
0.0
 40
2.34
210
0.0
220
0.0
230
-1.0
100
AcDbArc
 50
243.909115
 51
259.69645
  0
ARC
  5
45
100
AcDbEntity
  8
1
390
0
  6
dashed
 62
     3
100
AcDbCircle
 10
-1.709
 20
7.0905
 30
0.0
 40
7.215
210
0.0
220
0.0
230
-1.0
100
AcDbArc
 50
259.69645
 51
280.30355
  0
ARC
  5
46
100
AcDbEntity
  8
1
390
0
  6
dashed
 62
     3
100
AcDbCircle
 10
-1.709
 20
-5.20325
 30
0.0
 40
5.78125
210
0.0
220
0.0
230
-1.0
100
AcDbArc
 50
79.69645
 51
100.30355
  0
ARC
  5
47
100
AcDbEntity
  8
1
390
0
  6
dashed
 62
     3
100
AcDbCircle
 10
-0.209664
 20
0.2655
 30
0.0
 40
0.063164
210
0.0
220
0.0
230
-1.0
100
AcDbArc
 50
292.298368
 51
419.852384
  0
ARC
  5
48
100
AcDbEntity
  8
1
390
0
  6
dashed
 62
     3
100
AcDbCircle
 10
-3.208336
 20
0.2655
 30
0.0
 40
0.063164
210
0.0
220
0.0
230
-1.0
100
AcDbArc
 50
116.943113
 51
247.701632
  0
ARC
  5
49
100
AcDbEntity
  8
1
390
0
  6
dashed
 62
     3
100
AcDbCircle
 10
-1.010316
 20
1.890992
 30
0.0
 40
1.875
210
0.0
220
0.0
230
-1.0
100
AcDbArc
 50
280.303549
 51
296.090885
  0
ARC
  5
4A
100
AcDbEntity
  8
1
390
0
  6
dashed
 62
     3
100
AcDbCircle
 10
-1.010316
 20
-1.359992
 30
0.0
 40
1.875
210
0.0
220
0.0
230
-1.0
100
AcDbArc
 50
63.644901
 51
79.69645
  0
ARC
  5
4B
100
AcDbEntity
  8
1
390
0
  6
dashed
 62
     3
100
AcDbCircle
 10
-2.407684
 20
-1.359992
 30
0.0
 40
1.875
210
0.0
220
0.0
230
-1.0
100
AcDbArc
 50
100.30355
 51
116.355099
  0
ARC
  5
4C
100
AcDbEntity
  8
1
390
0
  6
dashed
 62
     3
100
AcDbCircle
 10
-2.407684
 20
1.890992
 30
0.0
 40
1.875
210
0.0
220
0.0
230
-1.0
100
AcDbArc
 50
243.909115
 51
259.69645
  0
ARC
  5
4D
100
AcDbEntity
  8
1
390
0
  6
dashed
 62
     3
100
AcDbCircle
 10
-1.709
 20
5.73425
 30
0.0
 40
5.78125
210
0.0
220
0.0
230
-1.0
100
AcDbArc
 50
259.69645
 51
280.30355
  0
MTEXT
  5
4E
100
AcDbEntity
  8
1
390
0
  6
solid
 62
     1
100
AcDbMText
 10
-0.124281
 20
1.048051
 30
0.0
 40
0.15
 41
1.8675
 71
     7
 72
     1
  1
existing 10-32^M\Ptapped holes
 73
     1
 44
1.0
  0
LEADER
  5
4F
100
AcDbEntity
  8
1
390
0
  6
solid
 62
     1
100
AcDbLeader
  3
Standard
 73
     0
 74
     0
 75
     0
 40
0.0
 76
     3
 10
-0.503
 20
0.2615
 30
0.0
 10
-0.231636
 20
1.234831
 30
0.0
 10
-0.156636
 20
1.234831
 30
0.0
 77
   256
210
0.0
220
0.0
230
1.0
  0
LEADER
  5
50
100
AcDbEntity
  8
1
390
0
  6
solid
 62
     1
100
AcDbLeader
  3
Standard
 73
     0
 74
     0
 75
     0
 40
0.0
 76
     3
 10
1.709
 20
0.2655
 30
0.0
 10
1.228074
 20
1.234831
 30
0.0
 10
1.153074
 20
1.234831
 30
0.0
 77
   256
210
0.0
220
0.0
230
1.0
  0
LEADER
  5
51
100
AcDbEntity
  8
1
390
0
  6
solid
 62
     1
100
AcDbLeader
  3
Standard
 73
     0
 74
     0
 75
     0
 40
0.0
 76
     3
 10
3.834
 20
0.2655
 30
0.0
 10
1.228074
 20
1.234831
 30
0.0
 10
1.153074
 20
1.234831
 30
0.0
 77
   256
210
0.0
220
0.0
230
1.0
  0
MTEXT
  5
52
100
AcDbEntity
  8
1
390
0
  6
solid
 62
     1
100
AcDbMText
 10
1.468728
 20
-1.014477
 30
0.0
 40
0.15
 41
2.5425
 71
     7
 72
     1
  1
new clearance holes^M\P#4 flat head
 73
     1
 44
1.0
  0
LEADER
  5
53
100
AcDbEntity
  8
1
390
0
  6
solid
 62
     1
100
AcDbLeader
  3
Standard
 73
     0
 74
     0
 75
     0
 40
0.0
 76
     3
 10
-0.028
 20
0.2615
 30
0.0
 10
1.361373
 20
-0.827697
 30
0.0
 10
1.436373
 20
-0.827697
 30
0.0
 77
   256
210
0.0
220
0.0
230
1.0
  0
LEADER
  5
54
100
AcDbEntity
  8
1
390
0
  6
solid
 62
     1
100
AcDbLeader
  3
Standard
 73
     0
 74
     0
 75
     0
 40
0.0
 76
     3
 10
1.041
 20
0.4355
 30
0.0
 10
1.361373
 20
-0.827697
 30
0.0
 10
1.436373
 20
-0.827697
 30
0.0
 77
   256
210
0.0
220
0.0
230
1.0
  0
LEADER
  5
55
100
AcDbEntity
  8
1
390
0
  6
solid
 62
     1
100
AcDbLeader
  3
Standard
 73
     0
 74
     0
 75
     0
 40
0.0
 76
     3
 10
1.041
 20
0.0875
 30
0.0
 10
1.361373
 20
-0.827697
 30
0.0
 10
1.436373
 20
-0.827697
 30
0.0
 77
   256
210
0.0
220
0.0
230
1.0
  0
TEXT
  5
56
100
AcDbEntity
  8
1
390
0
  6
solid
 62
     1
100
AcDbText
 10
3.005842
 20
-0.461493
 30
0.0
 40
0.15
  1
existing holes
 41
0.714286
100
AcDbText
  0
LEADER
  5
57
100
AcDbEntity
  8
1
390
0
  6
solid
 62
     1
100
AcDbLeader
  3
Standard
 73
     0
 74
     0
 75
     0
 40
0.0
 76
     3
 10
0.599
 20
0.2615
 30
0.0
 10
2.898487
 20
-0.369546
 30
0.0
 10
2.973487
 20
-0.369546
 30
0.0
 77
   256
210
0.0
220
0.0
230
1.0
  0
LEADER
  5
58
100
AcDbEntity
  8
1
390
0
  6
solid
 62
     1
100
AcDbLeader
  3
Standard
 73
     0
 74
     0
 75
     0
 40
0.0
 76
     3
 10
2.8
 20
0.2655
 30
0.0
 10
2.898487
 20
-0.369546
 30
0.0
 10
2.973487
 20
-0.369546
 30
0.0
 77
   256
210
0.0
220
0.0
230
1.0
  0
MTEXT
  5
59
100
AcDbEntity
  8
1
390
0
  6
solid
 62
     1
100
AcDbMText
 10
-0.638516
 20
-0.924668
 30
0.0
 40
0.15
 41
1.1925
 71
     7
 72
     1
  1
new hole^M\Pclearance^M\P#10
 73
     1
 44
1.0
  0
LEADER
  5
5A
100
AcDbEntity
  8
1
390
0
  6
solid
 62
     1
100
AcDbLeader
  3
Standard
 73
     0
 74
     0
 75
     0
 40
0.0
 76
     3
 10
0.877
 20
0.2615
 30
0.0
 10
0.263839
 20
-0.643054
 30
0.0
 10
0.188839
 20
-0.643054
 30
0.0
 77
   256
210
0.0
220
0.0
230
1.0
  0
ENDSEC
  0
SECTION
  2
OBJECTS
  0
DICTIONARY
  5
19
100
AcDbDictionary
280
     0
281
     1
  3
ACAD_GROUP
350
1A
  3
ACAD_MLINESTYLE
350
1B
  3
ACAD_LAYOUT
350
1E
  3
ACAD_PLOTSETTINGS
350
22
  3
ACAD_PLOTSTYLENAME
350
1F
  3
ACAD_WIPEOUT_VARS
350
23
  0
DICTIONARY
  5
1A
102
{ACAD_REACTORS
330
19
102
}
100
AcDbDictionary
280
     0
281
     1
  0
DICTIONARY
  5
1B
102
{ACAD_REACTORS
330
19
102
}
100
AcDbDictionary
280
     0
281
     1
  3
Standard
350
1C
  0
MLINESTYLE
  5
1C
102
{ACAD_REACTORS
330
1B
102
}
100
AcDbMlineStyle
  2
Standard
 70
     0
  3

 62
     0
 51
90.0
 52
90.0
 71
     2
 49
0.5
 62
   256
  6
ByLayer
 49
-0.5
 62
   256
  6
ByLayer
  0
ACDBDICTIONARYWDFLT
  5
1F
102
{ACAD_REACTORS
330
19
102
}
100
AcDbDictionary
281
     1
  3
Normal
350
1D
100
AcDbDictionaryWithDefault
340
1D
  0
ACDBPLACEHOLDER
  5
1D
102
{ACAD_REACTORS
330
1F
102
}
  0
LAYOUT
  5
20
102
{ACAD_REACTORS
330
1E
102
}
100
AcDbPlotSettings
  1

  2

  4

  6

 40
0.0
 41
0.0
 42
0.0
 43
0.0
 44
0.0
 45
0.0
 46
0.0
 47
0.0
 48
0.0
 49
0.0
140
0.0
141
0.0
142
1.0
143
1.0
 70
  1024
 72
     0
 73
     0
 74
     0
  7

 75
     0
147
1.0
148
0.0
149
0.0
100
AcDbLayout
  1
Model
 70
     0
 71
     0
 10
0.0
 20
0.0
 11
0.0
 21
0.0
 12
0.0
 22
0.0
 32
0.0
 14
0.0
 24
0.0
 34
0.0
 15
0.0
 25
0.0
 35
0.0
146
0.0
 13
0.0
 23
0.0
 33
0.0
 16
0.0
 26
0.0
 36
0.0
 17
0.0
 27
0.0
 37
0.0
 76
     0
330
A
331
0
345
0
346
0
  0
LAYOUT
  5
21
102
{ACAD_REACTORS
330
1E
102
}
100
AcDbPlotSettings
  1

  2

  4

  6

 40
0.0
 41
0.0
 42
0.0
 43
0.0
 44
0.0
 45
0.0
 46
0.0
 47
0.0
 48
0.0
 49
0.0
140
0.0
141
0.0
142
1.0
143
1.0
 70
     0
 72
     0
 73
     0
 74
     0
  7

 75
     0
147
1.0
148
0.0
149
0.0
100
AcDbLayout
  1
Layout1
 70
     0
 71
     0
 10
0.0
 20
0.0
 11
0.0
 21
0.0
 12
0.0
 22
0.0
 32
0.0
 14
0.0
 24
0.0
 34
0.0
 15
0.0
 25
0.0
 35
0.0
146
0.0
 13
0.0
 23
0.0
 33
0.0
 16
0.0
 26
0.0
 36
0.0
 17
0.0
 27
0.0
 37
0.0
 76
     0
330
B
331
0
345
0
346
0
  0
DICTIONARY
  5
1E
102
{ACAD_REACTORS
330
19
102
}
100
AcDbDictionary
280
     0
281
     1
  3
Layout1
350
21
  3
Model
350
20
  0
DICTIONARY
  5
22
102
{ACAD_REACTORS
330
19
102
}
100
AcDbDictionary
280
     0
281
     1
  0
WIPEOUTVARIABLES
  5
23
100
AcDbWipeoutVariables
 70
     1
  0
ENDSEC
  0
EOF
